0
SECTION
2
HEADER
9
$INSUNITS
70
4
9
$ACADVER
1
AC1014
9
$HANDSEED
5
FFFF
0
ENDSEC
0
SECTION
2
TABLES
0
TABLE
2
VPORT
5
8
100
AcDbSymbolTable
0
ENDTAB
0
TABLE
2
LTYPE
5
5
100
AcDbSymbolTable
0
LTYPE
5
14
100
AcDbSymbolTableRecord
100
AcDbLinetypeTableRecord
2
BYBLOCK
70
0
0
LTYPE
5
15
100
AcDbSymbolTableRecord
100
AcDbLinetypeTableRecord
2
BYLAYER
70
0
0
ENDTAB
0
TABLE
2
LAYER
5
2
100
AcDbSymbolTable
70
2
0
LAYER
5
50
100
AcDbSymbolTableRecord
100
AcDbLayerTableRecord
2
0
70
0
6
CONTINUOUS
0
ENDTAB
0
TABLE
2
STYLE
5
3
100
AcDbSymbolTable
70
1
0
STYLE
5
11
100
AcDbSymbolTableRecord
100
AcDbTextStyleTableRecord
2
STANDARD
70
0
0
ENDTAB
0
TABLE
2
VIEW
5
6
100
AcDbSymbolTable
70
0
0
ENDTAB
0
TABLE
2
UCS
5
7
100
AcDbSymbolTable
70
0
0
ENDTAB
0
TABLE
2
APPID
5
9
100
AcDbSymbolTable
70
2
0
APPID
5
12
100
AcDbSymbolTableRecord
100
AcDbRegAppTableRecord
2
ACAD
70
0
0
ENDTAB
0
TABLE
2
DIMSTYLE
5
A
100
AcDbSymbolTable
70
1
0
ENDTAB
0
TABLE
2
BLOCK_RECORD
5
1
100
AcDbSymbolTable
70
1
0
BLOCK_RECORD
5
1F
100
AcDbSymbolTableRecord
100
AcDbBlockTableRecord
2
*MODEL_SPACE
0
BLOCK_RECORD
5
1B
100
AcDbSymbolTableRecord
100
AcDbBlockTableRecord
2
*PAPER_SPACE
0
ENDTAB
0
ENDSEC
0
SECTION
2
BLOCKS
0
BLOCK
5
20
100
AcDbEntity
100
AcDbBlockBegin
2
*MODEL_SPACE
0
ENDBLK
5
21
100
AcDbEntity
100
AcDbBlockEnd
0
BLOCK
5
1C
100
AcDbEntity
100
AcDbBlockBegin
2
*PAPER_SPACE
0
ENDBLK
5
1D
100
AcDbEntity
100
AcDbBlockEnd
0
ENDSEC
0
SECTION
2
ENTITIES
0
LINE
5
100
100
AcDbEntity
8
0
100
AcDbLine
10
0
20
0
30
0
11
62
21
1.2325951644078309e-31
31
0
0
LINE
5
101
100
AcDbEntity
8
0
100
AcDbLine
10
62
20
1.2325951644078309e-31
30
0
11
62
21
80
31
0
0
LINE
5
102
100
AcDbEntity
8
0
100
AcDbLine
10
62
20
80
30
0
11
0
21
80
31
0
0
LINE
5
103
100
AcDbEntity
8
0
100
AcDbLine
10
0
20
80
30
0
11
0
21
0
31
0
0
CIRCLE
5
104
100
AcDbEntity
8
0
100
AcDbCircle
10
40
20
40
30
0
40
11
0
LINE
5
105
100
AcDbEntity
8
0
100
AcDbLine
10
0
20
80
30
0
11
0
21
75
31
0
0
LINE
5
106
100
AcDbEntity
8
0
100
AcDbLine
10
0
20
80
30
0
11
0
21
75
31
0
0
LWPOLYLINE
5
107
100
AcDbEntity
8
0
100
AcDbPolyline
90
12
70
1
43
0.0
10
7.1565240514156869
20
42.235626848726334
10
7.1565240514156869
20
40.048076431865987
10
11.531624885136411
20
40.048076431865987
10
11.531624885136402
20
42.235626848726326
10
13.719175171608597
20
42.235626848726326
10
13.719175301996769
20
35.672975598145257
10
11.531624885136411
20
35.672975598145257
10
11.531624885136411
20
37.860526015005618
10
7.1565240514157047
20
37.860526015005611
10
7.1565240514157047
20
35.672975598145243
10
4.9689736345553381
20
35.672975598145243
10
4.9689736345553293
20
42.235626848726298
0
LINE
5
108
100
AcDbEntity
8
0
100
AcDbLine
10
13.64486674923242
20
54.891903330911383
30
0
11
4.9039138091143819
21
51.639302874436488
31
0
0
LINE
5
109
100
AcDbEntity
8
0
100
AcDbLine
10
13.64486674923242
20
54.891903330911383
30
0
11
13.644866749232429
21
52.54832833496863
31
0
0
LINE
5
110
100
AcDbEntity
8
0
100
AcDbLine
10
4.9039138091143997
20
48.576732336467813
30
0
11
4.9039138091143819
21
51.639302874436488
31
0
0
LINE
5
111
100
AcDbEntity
8
0
100
AcDbLine
10
13.644866749232429
20
45.324131879992969
30
0
11
4.9039138091143997
21
48.576732336467813
31
0
0
LINE
5
112
100
AcDbEntity
8
0
100
AcDbLine
10
13.644866749232429
20
45.324131879992969
30
0
11
13.644866749232429
21
47.6677068759357
31
0
0
LINE
5
113
100
AcDbEntity
8
0
100
AcDbLine
10
13.644866749232429
20
47.6677068759357
30
0
11
7.0868398623130524
21
50.108017605452176
31
0
0
LINE
5
114
100
AcDbEntity
8
0
100
AcDbLine
10
13.644866749232429
20
52.54832833496863
30
0
11
7.0868398623130524
21
50.108017605452176
31
0
0
LWPOLYLINE
5
115
100
AcDbEntity
8
0
100
AcDbPolyline
90
12
70
1
43
0.0
10
13.719175301996742
20
26.813777395688199
10
11.531624885136393
20
26.813777395688199
10
11.531624885136393
20
29.001327812548567
10
7.1565240514156869
20
29.001327812548567
10
7.1565240514156869
20
26.813777395688202
10
4.9689736345553293
20
26.813777395688202
10
4.9689736345553204
20
33.376428646269247
10
7.156524051415678
20
33.376428646269275
10
7.1565240514156869
20
31.188878229408932
10
11.531624885136385
20
31.188878229408932
10
11.531624885136385
20
33.376428646269275
10
13.719175171608571
20
33.376428646269275
0
ENDSEC
0
SECTION
2
OBJECTS
0
DICTIONARY
5
C
100
AcDbDictionary
3
ACAD_GROUP
350
D
3
ACAD_MLINESTYLE
350
17
0
DICTIONARY
5
D
100
AcDbDictionary
0
DICTIONARY
5
1A
330
C
100
AcDbDictionary
0
DICTIONARY
5
17
100
AcDbDictionary
0
ENDSEC
0
EOF
